ISO-10303-21;
HEADER;
/* Generated by software containing ST-Developer
 * from STEP Tools, Inc. (www.steptools.com) 
 */
/* OPTION: using custom schema-name function */

FILE_DESCRIPTION(
/* description */ (''),
/* implementation_level */ '2;1');

FILE_NAME(
/* name */ '28520.4_28561.6_KDS-DE_B.stp',
/* time_stamp */ '2018-10-18T09:23:00+02:00',
/* author */ (''),
/* organization */ (''),
/* preprocessor_version */ 'ST-DEVELOPER v16.7',
/* originating_system */ 'SIEMENS PLM Software NX 12.0',
/* authorisation */ '');

FILE_SCHEMA (('AUTOMOTIVE_DESIGN { 1 0 10303 214 3 1 1 1 }'));
ENDSEC;

DATA;
#10=SHAPE_REPRESENTATION_RELATIONSHIP('None',
'relationship between 28520.4_28561.6_KDS-DE_B-None and KDS-DE_1,5_Kunde
n_Info-None',#22,#11);
#11=ADVANCED_BREP_SHAPE_REPRESENTATION('28520.4_28561.6_KDS-DE_B-None',(#32),
#329);
#12=SHAPE_DEFINITION_REPRESENTATION(#13,#22);
#13=PRODUCT_DEFINITION_SHAPE('','',#14);
#14=PRODUCT_DEFINITION(' ','',#16,#15);
#15=PRODUCT_DEFINITION_CONTEXT('part definition',#21,'design');
#16=PRODUCT_DEFINITION_FORMATION_WITH_SPECIFIED_SOURCE(' ',' ',#18,
 .NOT_KNOWN.);
#17=PRODUCT_RELATED_PRODUCT_CATEGORY('part','',(#18));
#18=PRODUCT('28520.4_28561.6_KDS-DE_B','28520.4_28561.6_KDS-DE_B',' ',(#19));
#19=PRODUCT_CONTEXT(' ',#21,'mechanical');
#20=APPLICATION_PROTOCOL_DEFINITION('international standard',
'automotive_design',2010,#21);
#21=APPLICATION_CONTEXT(
'core data for automotive mechanical design processes');
#22=SHAPE_REPRESENTATION('28520.4_28561.6_KDS-DE_B-None',(#216),#329);
#23=PRESENTATION_LAYER_ASSIGNMENT('1','Layer 1',(#32));
#24=STYLED_ITEM('',(#25),#32);
#25=PRESENTATION_STYLE_ASSIGNMENT((#26));
#26=SURFACE_STYLE_USAGE(.BOTH.,#27);
#27=SURFACE_SIDE_STYLE('',(#28));
#28=SURFACE_STYLE_FILL_AREA(#29);
#29=FILL_AREA_STYLE('',(#30));
#30=FILL_AREA_STYLE_COLOUR('',#31);
#31=COLOUR_RGB('Mittleres Stahlblau',0.596063172350652,0.666666666666667,
0.686259250782025);
#32=MANIFOLD_SOLID_BREP('',#33);
#33=CLOSED_SHELL('',(#36,#37,#38,#39,#40,#41,#42,#43,#44,#45,#46));
#34=FACE_BOUND('',#73,.T.);
#35=FACE_BOUND('',#74,.T.);
#36=ADVANCED_FACE('',(#58),#47,.T.);
#37=ADVANCED_FACE('',(#59),#48,.T.);
#38=ADVANCED_FACE('',(#60),#49,.T.);
#39=ADVANCED_FACE('',(#61),#50,.T.);
#40=ADVANCED_FACE('',(#62),#51,.T.);
#41=ADVANCED_FACE('',(#34,#35),#52,.T.);
#42=ADVANCED_FACE('',(#63),#53,.T.);
#43=ADVANCED_FACE('',(#64),#54,.F.);
#44=ADVANCED_FACE('',(#65),#55,.F.);
#45=ADVANCED_FACE('',(#66),#56,.F.);
#46=ADVANCED_FACE('',(#67),#57,.F.);
#47=PLANE('',#217);
#48=PLANE('',#218);
#49=PLANE('',#219);
#50=PLANE('',#220);
#51=PLANE('',#221);
#52=PLANE('',#222);
#53=PLANE('',#223);
#54=PLANE('',#224);
#55=PLANE('',#225);
#56=PLANE('',#226);
#57=PLANE('',#227);
#58=FACE_OUTER_BOUND('',#68,.T.);
#59=FACE_OUTER_BOUND('',#69,.T.);
#60=FACE_OUTER_BOUND('',#70,.T.);
#61=FACE_OUTER_BOUND('',#71,.T.);
#62=FACE_OUTER_BOUND('',#72,.T.);
#63=FACE_OUTER_BOUND('',#75,.T.);
#64=FACE_OUTER_BOUND('',#76,.T.);
#65=FACE_OUTER_BOUND('',#77,.T.);
#66=FACE_OUTER_BOUND('',#78,.T.);
#67=FACE_OUTER_BOUND('',#79,.T.);
#68=EDGE_LOOP('',(#80,#81,#82,#83));
#69=EDGE_LOOP('',(#84,#85,#86,#87));
#70=EDGE_LOOP('',(#88,#89,#90,#91));
#71=EDGE_LOOP('',(#92,#93,#94,#95));
#72=EDGE_LOOP('',(#96,#97,#98,#99));
#73=EDGE_LOOP('',(#100,#101,#102,#103));
#74=EDGE_LOOP('',(#104,#105,#106,#107));
#75=EDGE_LOOP('',(#108,#109,#110,#111));
#76=EDGE_LOOP('',(#112,#113,#114,#115));
#77=EDGE_LOOP('',(#116,#117,#118,#119));
#78=EDGE_LOOP('',(#120,#121,#122,#123));
#79=EDGE_LOOP('',(#124,#125,#126,#127));
#80=ORIENTED_EDGE('',*,*,#144,.F.);
#81=ORIENTED_EDGE('',*,*,#145,.T.);
#82=ORIENTED_EDGE('',*,*,#146,.T.);
#83=ORIENTED_EDGE('',*,*,#147,.F.);
#84=ORIENTED_EDGE('',*,*,#148,.F.);
#85=ORIENTED_EDGE('',*,*,#149,.F.);
#86=ORIENTED_EDGE('',*,*,#150,.T.);
#87=ORIENTED_EDGE('',*,*,#151,.T.);
#88=ORIENTED_EDGE('',*,*,#152,.F.);
#89=ORIENTED_EDGE('',*,*,#145,.F.);
#90=ORIENTED_EDGE('',*,*,#153,.F.);
#91=ORIENTED_EDGE('',*,*,#154,.T.);
#92=ORIENTED_EDGE('',*,*,#155,.F.);
#93=ORIENTED_EDGE('',*,*,#149,.T.);
#94=ORIENTED_EDGE('',*,*,#156,.F.);
#95=ORIENTED_EDGE('',*,*,#157,.F.);
#96=ORIENTED_EDGE('',*,*,#158,.F.);
#97=ORIENTED_EDGE('',*,*,#159,.T.);
#98=ORIENTED_EDGE('',*,*,#160,.F.);
#99=ORIENTED_EDGE('',*,*,#151,.F.);
#100=ORIENTED_EDGE('',*,*,#161,.F.);
#101=ORIENTED_EDGE('',*,*,#157,.T.);
#102=ORIENTED_EDGE('',*,*,#162,.T.);
#103=ORIENTED_EDGE('',*,*,#159,.F.);
#104=ORIENTED_EDGE('',*,*,#154,.F.);
#105=ORIENTED_EDGE('',*,*,#163,.T.);
#106=ORIENTED_EDGE('',*,*,#164,.T.);
#107=ORIENTED_EDGE('',*,*,#165,.F.);
#108=ORIENTED_EDGE('',*,*,#166,.F.);
#109=ORIENTED_EDGE('',*,*,#147,.T.);
#110=ORIENTED_EDGE('',*,*,#167,.F.);
#111=ORIENTED_EDGE('',*,*,#164,.F.);
#112=ORIENTED_EDGE('',*,*,#150,.F.);
#113=ORIENTED_EDGE('',*,*,#155,.T.);
#114=ORIENTED_EDGE('',*,*,#161,.T.);
#115=ORIENTED_EDGE('',*,*,#158,.T.);
#116=ORIENTED_EDGE('',*,*,#144,.T.);
#117=ORIENTED_EDGE('',*,*,#166,.T.);
#118=ORIENTED_EDGE('',*,*,#163,.F.);
#119=ORIENTED_EDGE('',*,*,#153,.T.);
#120=ORIENTED_EDGE('',*,*,#152,.T.);
#121=ORIENTED_EDGE('',*,*,#165,.T.);
#122=ORIENTED_EDGE('',*,*,#167,.T.);
#123=ORIENTED_EDGE('',*,*,#146,.F.);
#124=ORIENTED_EDGE('',*,*,#162,.F.);
#125=ORIENTED_EDGE('',*,*,#156,.T.);
#126=ORIENTED_EDGE('',*,*,#148,.T.);
#127=ORIENTED_EDGE('',*,*,#160,.T.);
#128=VERTEX_POINT('',#278);
#129=VERTEX_POINT('',#279);
#130=VERTEX_POINT('',#281);
#131=VERTEX_POINT('',#283);
#132=VERTEX_POINT('',#287);
#133=VERTEX_POINT('',#288);
#134=VERTEX_POINT('',#290);
#135=VERTEX_POINT('',#292);
#136=VERTEX_POINT('',#296);
#137=VERTEX_POINT('',#298);
#138=VERTEX_POINT('',#302);
#139=VERTEX_POINT('',#304);
#140=VERTEX_POINT('',#308);
#141=VERTEX_POINT('',#310);
#142=VERTEX_POINT('',#316);
#143=VERTEX_POINT('',#318);
#144=EDGE_CURVE('',#128,#129,#168,.T.);
#145=EDGE_CURVE('',#128,#130,#169,.T.);
#146=EDGE_CURVE('',#130,#131,#170,.T.);
#147=EDGE_CURVE('',#129,#131,#171,.T.);
#148=EDGE_CURVE('',#132,#133,#172,.T.);
#149=EDGE_CURVE('',#134,#132,#173,.T.);
#150=EDGE_CURVE('',#134,#135,#174,.T.);
#151=EDGE_CURVE('',#135,#133,#175,.T.);
#152=EDGE_CURVE('',#130,#136,#176,.T.);
#153=EDGE_CURVE('',#137,#128,#177,.T.);
#154=EDGE_CURVE('',#137,#136,#178,.T.);
#155=EDGE_CURVE('',#134,#138,#179,.T.);
#156=EDGE_CURVE('',#139,#132,#180,.T.);
#157=EDGE_CURVE('',#138,#139,#181,.T.);
#158=EDGE_CURVE('',#140,#135,#182,.T.);
#159=EDGE_CURVE('',#140,#141,#183,.T.);
#160=EDGE_CURVE('',#133,#141,#184,.T.);
#161=EDGE_CURVE('',#138,#140,#185,.T.);
#162=EDGE_CURVE('',#139,#141,#186,.T.);
#163=EDGE_CURVE('',#137,#142,#187,.T.);
#164=EDGE_CURVE('',#142,#143,#188,.T.);
#165=EDGE_CURVE('',#136,#143,#189,.T.);
#166=EDGE_CURVE('',#129,#142,#190,.T.);
#167=EDGE_CURVE('',#143,#131,#191,.T.);
#168=LINE('',#277,#192);
#169=LINE('',#280,#193);
#170=LINE('',#282,#194);
#171=LINE('',#284,#195);
#172=LINE('',#286,#196);
#173=LINE('',#289,#197);
#174=LINE('',#291,#198);
#175=LINE('',#293,#199);
#176=LINE('',#295,#200);
#177=LINE('',#297,#201);
#178=LINE('',#299,#202);
#179=LINE('',#301,#203);
#180=LINE('',#303,#204);
#181=LINE('',#305,#205);
#182=LINE('',#307,#206);
#183=LINE('',#309,#207);
#184=LINE('',#311,#208);
#185=LINE('',#313,#209);
#186=LINE('',#314,#210);
#187=LINE('',#315,#211);
#188=LINE('',#317,#212);
#189=LINE('',#319,#213);
#190=LINE('',#321,#214);
#191=LINE('',#322,#215);
#192=VECTOR('',#230,1.);
#193=VECTOR('',#231,1.);
#194=VECTOR('',#232,1.);
#195=VECTOR('',#233,1.);
#196=VECTOR('',#236,1.);
#197=VECTOR('',#237,1.);
#198=VECTOR('',#238,1.);
#199=VECTOR('',#239,1.);
#200=VECTOR('',#242,1.);
#201=VECTOR('',#243,1.);
#202=VECTOR('',#244,1.);
#203=VECTOR('',#247,1.);
#204=VECTOR('',#248,1.);
#205=VECTOR('',#249,1.);
#206=VECTOR('',#252,1.);
#207=VECTOR('',#253,1.);
#208=VECTOR('',#254,1.);
#209=VECTOR('',#257,1.);
#210=VECTOR('',#258,1.);
#211=VECTOR('',#259,1.);
#212=VECTOR('',#260,1.);
#213=VECTOR('',#261,1.);
#214=VECTOR('',#264,1.);
#215=VECTOR('',#265,1.);
#216=AXIS2_PLACEMENT_3D('',#276,#228,#229);
#217=AXIS2_PLACEMENT_3D('',#285,#234,#235);
#218=AXIS2_PLACEMENT_3D('',#294,#240,#241);
#219=AXIS2_PLACEMENT_3D('',#300,#245,#246);
#220=AXIS2_PLACEMENT_3D('',#306,#250,#251);
#221=AXIS2_PLACEMENT_3D('',#312,#255,#256);
#222=AXIS2_PLACEMENT_3D('',#320,#262,#263);
#223=AXIS2_PLACEMENT_3D('',#323,#266,#267);
#224=AXIS2_PLACEMENT_3D('',#324,#268,#269);
#225=AXIS2_PLACEMENT_3D('',#325,#270,#271);
#226=AXIS2_PLACEMENT_3D('',#326,#272,#273);
#227=AXIS2_PLACEMENT_3D('',#327,#274,#275);
#228=DIRECTION('',(0.,0.,1.));
#229=DIRECTION('',(1.,0.,0.));
#230=DIRECTION('',(-1.,0.,0.));
#231=DIRECTION('',(0.,-1.,0.));
#232=DIRECTION('',(-1.,0.,0.));
#233=DIRECTION('',(0.,-1.,0.));
#234=DIRECTION('',(0.,0.,-1.));
#235=DIRECTION('',(1.,0.,0.));
#236=DIRECTION('',(-1.,0.,0.));
#237=DIRECTION('',(0.,-1.,0.));
#238=DIRECTION('',(-1.,0.,0.));
#239=DIRECTION('',(0.,-1.,0.));
#240=DIRECTION('',(0.,0.,1.));
#241=DIRECTION('',(-1.,0.,0.));
#242=DIRECTION('',(-0.0348782627423735,0.034878262742374,0.998782765958718));
#243=DIRECTION('',(0.0348782627423735,0.0348782627423734,-0.998782765958718));
#244=DIRECTION('',(0.,-1.,0.));
#245=DIRECTION('',(0.999390827019096,0.,0.0348994967024999));
#246=DIRECTION('',(-0.0348994967024999,0.,0.999390827019096));
#247=DIRECTION('',(0.,0.,-1.));
#248=DIRECTION('',(0.,0.,1.));
#249=DIRECTION('',(0.,-1.,0.));
#250=DIRECTION('',(1.,0.,0.));
#251=DIRECTION('',(0.,0.,1.));
#252=DIRECTION('',(0.,0.,1.));
#253=DIRECTION('',(0.,-1.,0.));
#254=DIRECTION('',(0.,0.,-1.));
#255=DIRECTION('',(-1.,0.,0.));
#256=DIRECTION('',(0.,0.,-1.));
#257=DIRECTION('',(-1.,0.,0.));
#258=DIRECTION('',(-1.,0.,0.));
#259=DIRECTION('',(-1.,0.,0.));
#260=DIRECTION('',(0.,-1.,0.));
#261=DIRECTION('',(-1.,0.,0.));
#262=DIRECTION('',(0.,0.,1.));
#263=DIRECTION('',(-1.,0.,0.));
#264=DIRECTION('',(0.0348782627423735,-0.034878262742374,0.998782765958718));
#265=DIRECTION('',(-0.0348782627423734,-0.0348782627423745,-0.998782765958718));
#266=DIRECTION('',(-0.999390827019096,0.,0.0348994967024998));
#267=DIRECTION('',(-0.0348994967024998,0.,-0.999390827019096));
#268=DIRECTION('',(0.,-1.,0.));
#269=DIRECTION('',(0.,0.,1.));
#270=DIRECTION('',(0.,-0.999390827019096,-0.0348994967024997));
#271=DIRECTION('',(0.,-0.0348994967024997,0.999390827019096));
#272=DIRECTION('',(0.,0.999390827019096,-0.0348994967025009));
#273=DIRECTION('',(0.,-0.0348994967025009,-0.999390827019096));
#274=DIRECTION('',(0.,1.,0.));
#275=DIRECTION('',(0.,0.,-1.));
#276=CARTESIAN_POINT('',(0.,0.,0.));
#277=CARTESIAN_POINT('',(11.,9.95698415389909,-0.2));
#278=CARTESIAN_POINT('',(9.95698415389835,9.95698415389835,-0.2));
#279=CARTESIAN_POINT('',(-9.95698415389872,9.95698415389835,-0.200000000000013));
#280=CARTESIAN_POINT('',(9.95698415389835,11.,-0.2));
#281=CARTESIAN_POINT('',(9.95698415389835,-9.95698415389835,-0.2));
#282=CARTESIAN_POINT('',(11.,-9.95698415389835,-0.200000000000013));
#283=CARTESIAN_POINT('',(-9.95698415389835,-9.95698415389835,-0.200000000000012));
#284=CARTESIAN_POINT('',(-9.95698415389909,11.,-0.2));
#285=CARTESIAN_POINT('',(-9.95698415389909,11.,-0.2));
#286=CARTESIAN_POINT('',(11.,-8.75,17.5));
#287=CARTESIAN_POINT('',(8.75,-8.75,17.5));
#288=CARTESIAN_POINT('',(-8.75,-8.75,17.5));
#289=CARTESIAN_POINT('',(8.75,11.,17.5));
#290=CARTESIAN_POINT('',(8.75,8.75,17.5));
#291=CARTESIAN_POINT('',(11.,8.75,17.5));
#292=CARTESIAN_POINT('',(-8.75,8.75,17.5));
#293=CARTESIAN_POINT('',(-8.75,11.,17.5));
#294=CARTESIAN_POINT('',(8.75,11.,17.5));
#295=CARTESIAN_POINT('',(9.93149012493269,-9.93149012493269,0.530053470662617));
#296=CARTESIAN_POINT('',(9.38079145728453,-9.38079145728452,16.3));
#297=CARTESIAN_POINT('',(9.95825297559506,9.95825297559506,-0.236334299477974));
#298=CARTESIAN_POINT('',(9.38079145728453,9.38079145728454,16.3));
#299=CARTESIAN_POINT('',(9.38079145728453,11.,16.3));
#300=CARTESIAN_POINT('',(9.95698415389835,11.,-0.200000000000013));
#301=CARTESIAN_POINT('',(8.75,8.75,16.45));
#302=CARTESIAN_POINT('',(8.75,8.75,16.3));
#303=CARTESIAN_POINT('',(8.75,-8.75,16.45));
#304=CARTESIAN_POINT('',(8.75,-8.75,16.3));
#305=CARTESIAN_POINT('',(8.75,11.,16.3));
#306=CARTESIAN_POINT('',(8.75,11.,16.45));
#307=CARTESIAN_POINT('',(-8.75,8.75,17.5));
#308=CARTESIAN_POINT('',(-8.75,8.75,16.3));
#309=CARTESIAN_POINT('',(-8.75,11.,16.3));
#310=CARTESIAN_POINT('',(-8.75,-8.75,16.3));
#311=CARTESIAN_POINT('',(-8.75,-8.75,17.5));
#312=CARTESIAN_POINT('',(-8.75,11.,17.5));
#313=CARTESIAN_POINT('',(11.,8.75,16.3));
#314=CARTESIAN_POINT('',(-8.899999999999,-8.75,16.3));
#315=CARTESIAN_POINT('',(11.,9.38079145728454,16.3));
#316=CARTESIAN_POINT('',(-9.38079145728453,9.38079145728454,16.3));
#317=CARTESIAN_POINT('',(-9.38079145728453,11.,16.3));
#318=CARTESIAN_POINT('',(-9.38079145728453,-9.38079145728452,16.3));
#319=CARTESIAN_POINT('',(-8.899999999999,-9.38079145728452,16.3));
#320=CARTESIAN_POINT('',(-8.899999999999,11.,16.3));
#321=CARTESIAN_POINT('',(-9.69454853863821,9.6945485386382,7.3151727490475));
#322=CARTESIAN_POINT('',(-9.66778568797583,-9.66778568797583,8.08156051918811));
#323=CARTESIAN_POINT('',(-9.69295853156415,11.,7.36070459434186));
#324=CARTESIAN_POINT('',(11.,8.75,16.45));
#325=CARTESIAN_POINT('',(11.,9.95698415389835,-0.200000000000026));
#326=CARTESIAN_POINT('',(11.,-9.69295853156415,7.36070459434186));
#327=CARTESIAN_POINT('',(11.,-8.75,17.5));
#328=MECHANICAL_DESIGN_GEOMETRIC_PRESENTATION_REPRESENTATION('',(#24),#329);
#329=(
GEOMETRIC_REPRESENTATION_CONTEXT(3)
GLOBAL_UNCERTAINTY_ASSIGNED_CONTEXT((#330))
GLOBAL_UNIT_ASSIGNED_CONTEXT((#336,#332,#331))
REPRESENTATION_CONTEXT('KDS-DE_B_Kunden_Info','TOP_LEVEL_ASSEMBLY_PART')
);
#330=UNCERTAINTY_MEASURE_WITH_UNIT(LENGTH_MEASURE(2.E-5),#336,
'DISTANCE_ACCURACY_VALUE','Maximum Tolerance applied to model');
#331=(
NAMED_UNIT(*)
SI_UNIT($,.STERADIAN.)
SOLID_ANGLE_UNIT()
);
#332=(
CONVERSION_BASED_UNIT('DEGREE',#334)
NAMED_UNIT(#333)
PLANE_ANGLE_UNIT()
);
#333=DIMENSIONAL_EXPONENTS(0.,0.,0.,0.,0.,0.,0.);
#334=PLANE_ANGLE_MEASURE_WITH_UNIT(PLANE_ANGLE_MEASURE(0.0174532925),#335);
#335=(
NAMED_UNIT(*)
PLANE_ANGLE_UNIT()
SI_UNIT($,.RADIAN.)
);
#336=(
LENGTH_UNIT()
NAMED_UNIT(*)
SI_UNIT(.MILLI.,.METRE.)
);
ENDSEC;
END-ISO-10303-21;
